Types:

  • Chords
  • Piano
  • Tabs
  • Bass
  • Drum
  • Harmonica

Any Way The Wind Blows

Frank Zappa
Intro
    G                          Any way the wind
e|-----------------------|-----------------------|
B|--3-----3--------------|-----------------------|
G|--4--/4---4-2-0-2-0----|--0--------------------|
D|--5-----------------2--|-----------------------|
A|-----------------------|-----------------------|
E|-----------------------|-----------------------|

Section A
 Blows                   Is fine with
  G         G F#F     Em      Em F F#
|-----3-3---3-2-1--|-----0-0---0-1-2--|
|-----3-3---3-2-1--|-----0-0---0-1-2--|
|-----4-4---4-3-2--|-----0-0---0-2-3--|
|-----5-5---5-4-3--|-----2-2---2-3-4--|
|-----5-5---5-4-3--|-----2-2---2-3-4--|
|--3--3-3---3-2-1--|--0--0-0---0-1-2--|


Section B
 through  fussing      fighting you
  C        Bm           Am      Em
|-----12-------10----|------8------------|
|--------------------|------------7------|
|---12--12---11--11--|----9---9-----9----|
|-10-------9---------|--7----------------|
|--------------------|----------7--------|
|--------------------|-------------------|x2

 makes     happy       now         blue              ue  any way the wind
  C        Bm           Am          Em                D   D
|-----12-------10----|------8----|-----------------|---------------------|
|--------------------|-----------|----7---7---7----|------3--------------|
|---12--12---11--11--|----9---9--|--------------9--|--7---2--------------|
|-10-------9---------|--7--------|-----------------|------0--------------|
|--------------------|-----------|--7---7---7------|---------------------|
|--------------------|-----------|-----------------|---------------------|

Solo (over A section)
|-----------------|-------------|-----------------|--/12--10----10h12-----|
|--3--------8-10--|--8----------|---------8-10-8--|-------------------12--|
|--2--7-7-9-------|-------------|---7-7-9---------|-----------------------|
|--0--------------|-------------|-----------------|-----------------------|
|-----------------|-------------|-----------------|-----------------------|
|-----------------|-------------|-----------------|-----------------------|

|------------------|-------------|-------------------|-/12--10------------|
|--12/-------8-10--|--8----------|-----------8-10-8--|-------------12-10--|
|------7-7-9-------|-------------|--77-7-7-9---------|--------------------|
|------------------|-------------|-------------------|--------------------|
|------------------|-------------|-------------------|--------------------|
|------------------|-------------|-------------------|--------------------|

|------------------|
|--12--------------|
|------------------|
|------------------|
|------------------|
|------------------|


Ends on G Major 7

|------------10---|
|---3--------12---|
|---4---or---11---|
|---4--------12---|
|------------10---|
|---3-------------|
Carregando...

Facebook