Types:

Titanium

Boyce Avenue
Key: G

Intro: 

(Dedilhado)
  G               D9/F#
e---------------------------------------------------
B---------------------------------------------------
G-----2---4---2-------0---2---0---------------------
D---0---0---0---0---0---0---0---0-------------------
A---------------------------------------------------
E-3---------------2---------------------------------

  Em               
e---------------------------------------------------
B---------------------------------------------------
G-----2---4---2-5---4---2---4---0-------------------
D---2---2---2---------2---2---2---------------------
A---------------------------------------------------
E-0---------------0---------------------------------

Versos:

(Dedilhado)
  G               D9/F#
e---------------------------------------------------
B---------------------------------------------------
G-----2---4---2-------0---2---0---------------------
D---0---0---0---0---0---0---0---0-------------------
A---------------------------------------------------
E-3---------------2---------------------------------

  Em              
e---------------------------------------------------
B---------------------------------------------------
G-----2---4---2-------2---4---2---------------------
D---2---2---2---2---2---2---2---2-------------------
A---------------------------------------------------
E-0---------------0---------------------------------

  G               D9/F#
e---------------------------------------------------
B---------------------------------------------------
G-----2---4---2-------0---2---0---------------------
D---0---0---0---0---0---0---0---0-------------------
A---------------------------------------------------
E-3---------------2---------------------------------

  Em               
e---------------------------------------------------
B---------------------------------------------------
G-----2---4---2-5---4---2---4---0-------------------
D---2---2---2---------2---2---2---------------------
A---------------------------------------------------
E-0---------------0---------------------------------


Verse 1:
G               D9/F#       
  You shout it loud
    Em 
But I cant hear a word you say
G              D9/F#           Em
  Im talking loud not saying much
G             D9/F#  Em 
  Im criticized but all your bullets ricochet
G               D9/F#          Em 
  You shoot me down, but I get up

Chorus:
C5            D5               B5    
  Im bulletproof, nothing to lose
       E5
Fire away, fire away
C5      D5                B5 
  Ricochet, you take your aim
       E5
Fire away, fire away
C5              D5               B5 
  You shoot me down but I wont fall
        E5
I am titanium
C5              D5               B5 
  You shoot me down but I wont fall
        E5     
I am titanium

(C7+ D9 B4 Em) x2

Verse 2:
G         D9/F#  
  Cut me down
          Em
But its you whod have further to fall
G        D9/F#         Em
  Ghost town, haunted love
G             D9/F#   
  Raise your voice
  Em
sticks and stones may break my bones
G              D9/F#           Em
  Im talking loud not saying much

Chorus:
C5            D5               B5    
  Im bulletproof, nothing to lose
       E5
Fire away, fire away
C5      D5                B5 
  Ricochet, you take your aim
       E5
Fire away, fire away
C5              D5               B5 
  You shoot me down but I wont fall
        E5
I am titanium
C5              D5               B5 
  You shoot me down but I wont fall
        E5     
I am titanium

C7+  D9   B4         Em
             I am titanium (x2)

Bridge:
C7+        D9            B4
    Stone-hard, machine gun
              Em
Firing at the ones who run
C7+        D9                      B4  Em
    Stone-hard, that bulletproof glass


Chorus:
C5            D5               B5    
  Im bulletproof, nothing to lose
       E5
Fire away, fire away
C5      D5                B5 
  Ricochet, you take your aim
       E5
Fire away, fire away
C5              D5               B5 
  You shoot me down but I wont fall
        E5
I am titanium
C5              D5               B5 
  You shoot me down but I wont fall
        E5     
I am titanium

C7+  D9   B4         Em
             I am titanium (x2)
Carregando...

Facebook