Types:

Las Flores Del Mal

Barón Rojo
INTRO: 
 
Guitarra 1 
 
Guitarra 2 Em (palm mute) 
eI-------------------------I------------------------------------ 
bI-------------------------I------------------------------------ 
gI-------------------------I------------------------------------ 
dI-------------------------I----------------------------x4------ 
aI------5-4-0-6-4-0-5-4-0--I---------5-4-0-6-4-0---------------- 
eI-0-0---------------------I--0-0------------------3------------ 
 
VERSO:Riff 1                            Carlos Eduardo Mejia(Medellin,Colombia 
                                        ironmejiab@hotmail.com  
 
Mi                                   Sol/Re 
La gente trata de ignorar que existen 
Sol Sol/Fa# Mi 
las flores del mal. 
 
 
                                     Sol/Re 
Pero lo cierto es que se multiplican 
Sol Sol/Fa# Mi 
en campos de metal. 
                                     Sol/re 
Y el mundo cae sin remisión__________ 
Sol Sol/Fa# Mi 
en un pozo infernal. 
                                     Sol/Re 
Pues nadie quiere reconocer__________ 
Sol Sol/fa# Mi 
que esto es el final. 
 
Riff 2 
 
Lam 
¿Por qué se empeñan en destruir, 
todo lo bueno que queda aquí? 
¿Por qué germinan en cualquier 
lugar, sin un control 
las flores del mal? 
 
Riff 3 
 
   B         D         A         B  A  G  B 
e|--------------------------------------------------| 
b|--------------------------------------------------| 
g|-----------7-7-7--7-------------------------------| 
d|-9-9-9--9--7-7-7--7--7-7-7--7--9--7--5--9-9-9--9--| 
a|-9-9-9--9--5-5-5--5--7-7-7--7--9--7--5--9-9-9--9--| 
e|-7-7-7--7------------5-5-5--5--7--5--3--7-7-7--7--| 
 
CORO:Riff 4 
 
Re              La      Si La  Sol Sim 
Hay que arrancar____las flores del mal. 
Re              La      Si La  Sol Sim 
Hay que arrancar____las flores del mal. 
Re              La      Si La  Sol 
Hay que arrancar____las flores del mal. 
 
Guitarra 1 (Se hace en el "HAY QUE ARRANCAR.....) 
e--------------------------------------------------- 
b--15-15-15-----12-12---------12-------------------- 
g------------14--------14--12----------------------- 
d--------------------------------------------------- 
a--------------------------------------------------- 
e--------------------------------------------------- 
 
 
 
INTRO 
VERSO:Riff 1 
 
Mi                             Sol/Re 
Ya nadie lucha por el futuro___ 
Sol Sol/Fa# Mi 
todo es provisional. 
                               Sol/Re 
Y el egoísmo se hace estandarte 
Sol Sol/fa# Mi 
internacional. 
                               Sol/Re 
Ojo por ojo, diente por diente 
Sol Sol/Fa# Mi 
es ley fundamental. 
                               Sol/Re 
Y así sin duda nos llevarán____ 
Sol Sol/Fa# Mi 
al juicio universal. 
 
Riff 2 
 
Lam 
¿qué genios locos van a impedir 
que este siglo llegue a su fin? 
¿Por qué germinan en cualquier 
lugar, sin un control 
las flores del mal? 
 
 
Riff 3 
 
   B         D         A         B  A  G  B 
e|--------------------------------------------------| 
b|--------------------------------------------------| 
g|-----------7-7-7--7-------------------------------| 
d|-9-9-9--9--7-7-7--7--7-7-7--7--9--7--5--9-9-9--9--| 
a|-9-9-9--9--5-5-5--5--7-7-7--7--9--7--5--9-9-9--9--| 
e|-7-7-7--7------------5-5-5--5--7--5--3--7-7-7--7--| 
 
 
Riff 4 
 
Re               La      Si La Sol Sim 
Hay que arrancar____las flores del mal. 
Re              La      Si La  Sol Sim 
Hay que arrancar____las flores del mal. 
Re              La      Si La  Sol 
Hay que arrancar____las flores del mal. 
 
Guitarra 1 (El mismo punteo) 
 
 
SOLO:Riff 1 
----------- 
Lam 
¿Por qué se empeñan en destruir, 
todo lo bueno que queda aquí? 
¿Por qué germinan en cualquier 
lugar, sin un control 
las flores del mal? 
 
 
 
   B         D         A         B  A  G  B 
e|--------------------------------------------------| 
b|--------------------------------------------------| 
g|-----------7-7-7--7-------------------------------| 
d|-9-9-9--9--7-7-7--7--7-7-7--7--9--7--5--9-9-9--9--| 
a|-9-9-9--9--5-5-5--5--7-7-7--7--9--7--5--9-9-9--9--| 
e|-7-7-7--7------------5-5-5--5--7--5--3--7-7-7--7--| 
 
Riff 4 
 
 
 
 
Re               La      Si La  Sol Sim 
Hay que arrancar____las flores del mal. 
Re              La      Si La   Sol Sim 
Hay que arrancar____las flores del mal. 
Re              La      Si La  Sol 
Hay que arrancar____las flores del mal. 
 
Guitarra 1 (El mismo punteo) 
INTRO: 
 
ACORDES: 
-------- 
  Mi   Sol/Re  Sol  Sol/Fa#  Lam  Sim  Re 
e|-0--|-3-----|-3--|--------|-0--|-2--|-2-| 
b|-0--|-0-----|-0--|-0------|-1--|-3--|-3-| 
g|-1--|-0-----|-0--|-0------|-2--|-4--|-2-| 
d|-2--|-------|-0--|-0------|-2--|-4--|-0-| 
a|-2--|-------|-2--|-2------|-0--|-2--|---| 
e|-0--|-------|-3--|-2------|----|-2--|---| 

Carregando...

Facebook